Deep PurpleSoldier Of Fortune
Добавлено: — , Просмотров: 3126 (+0)



"Stombringer" (1974)
Soldier Of Fortune
(Blackmore/Coverdale)

INTRO:             Gm 
|------------------------------|
|----------------10--11--13/15-|
|------------12----------------|
|--------12--------------------|
|----10------------------------|
|------------------------------|

     Dm 
|----------------------------------------|
|----15--13^15^13-----13-11^13^11--------|
|-----------------15--------------12--14-|
|----------------------------------------|
|----------------------------------------|
|----------------------------------------|

     C                           Gm 
|-----------------------------|---------------------|
|----13--11^13^11-------------|--11^10--------------|
|----12-----------12--10-12---|--------12--------12-|
|----14-----------------------|---------------------|
|-----------------------------|------------10-13----|
|-----------------------------|---------------------|

VERSE:        4                 4                  4                   4
Gm                F                  Gm                  Dm 
4                 4                  4                   4
Gm                F                  Gm                  Dm 

CHORUS:        2                  2                  4
Bb                 C                  Gm 
2                  2                  2                    2
Eb                 F                  Bb                   D7 
2                  2                  2
Gm                 F                  Bb 

3                  1
Eb                Eb/D 
2                2                  4
Cm               Dm                Gm 

ENDING:        2                2                 4
Cm               Dm                Gm 
2                2                 4
Cm               Dm                G 

SLIDE SOLO:    |------------|-----------------|-----------10-13-|-15-15-----------|
|------------|--------------11-|--/13-13---------|--------15\13-11-|
|---------10-|--/12-12---12----|-----------------|-----------------|
|-----/12----|-----------------|-----------------|-----------------|
|------------|-----------------|-----------------|-----------------|
|------------|-----------------|-----------------|-----------------|

|-------------13-|-15-15-----------|-----------------|-----------------|
|----13---/15----|--------15\13-11-|-15-15--15\13-11-|-13--10/11-10/11-|
|----------------|-----------------|-----------------|-----------------|
|----------------|-----------------|-----------------|-----------------|
|----------------|-----------------|-----------------|-----------------|
|----------------|-----------------|-----------------|-----------------|

     q
|-------|
|-------|
|----12-|
|-------|
|-------|
|-------|
Gm
I II III IV V VI 
1-я 
 
 
 
 
 
4
 
 
 
 
 
 
 
2-я 
 
 
 
 
 
3
 
 
 
 
 
 
 
3-я 
 
 
 
 
 
 
 
 
 
 
 
 
4-я 
 
 
 
 
 
 
 
 
 
 
 
 
5-я 
 
1
 
 
 
 
 
 
 
 
 
 
 
6-я 
 
 
 
 
 
2
 
 
 
 
 
 
 
Dm
I II III IV V VI 
1-я 
 
1
 
 
 
 
 
 
 
 
 
 
 
2-я 
 
 
 
 
 
3
 
 
 
 
 
 
 
3-я 
 
 
 
2
 
 
 
 
 
 
 
 
 
4-я 
 
 
 
 
 
 
 
 
 
 
 
 
5-я 
 
 
 
 
 
 
 
 
 
 
 
 
6-я 
 
 
 
 
 
 
 
 
 
 
 
 
C
I II III IV V VI 
1-я 
 
 
 
 
 
 
 
 
 
 
 
 
2-я 
 
1
 
 
 
 
 
 
 
 
 
 
 
3-я 
 
 
 
 
 
 
 
 
 
 
 
 
4-я 
 
 
 
2
 
 
 
 
 
 
 
 
 
5-я 
 
 
 
 
 
3
 
 
 
 
 
 
 
6-я 
 
 
 
 
 
 
 
 
 
 
 
 
F
I II III IV V VI 
1-я 
 
1
 
 
 
 
 
 
 
 
 
 
 
2-я 
 
1
 
 
 
 
 
 
 
 
 
 
 
3-я 
 
 
 
2
 
 
 
 
 
 
 
 
 
4-я 
 
 
 
 
 
3
 
 
 
 
 
 
 
5-я 
 
 
 
 
 
 
 
 
 
 
 
 
6-я 
 
1
 
 
 
 
 
 
 
 
 
 
 
Bb
I II III IV V VI 
1-я 
 
1
 
 
 
 
 
 
 
 
 
 
 
2-я 
 
 
 
 
 
4
 
 
 
 
 
 
 
3-я 
 
 
 
 
 
3
 
 
 
 
 
 
 
4-я 
 
 
 
 
 
 
 
 
 
 
 
 
5-я 
 
1
 
 
 
 
 
 
 
 
 
 
 
6-я 
 
 
 
 
 
 
 
 
 
 
 
 
Eb
I II III IV V VI 
1-я 
 
 
 
 
 
3
 
 
 
 
 
 
 
2-я 
 
 
 
 
 
 
 
4
 
 
 
 
 
3-я 
 
 
 
 
 
2
 
 
 
 
 
 
 
4-я 
 
1
 
 
 
 
 
 
 
 
 
 
 
5-я 
 
 
 
 
 
 
 
 
 
 
 
 
6-я 
 
 
 
 
 
 
 
 
 
 
 
 
D7
I II III IV V VI 
1-я 
 
 
 
3
 
 
 
 
 
 
 
 
 
2-я 
 
1
 
 
 
 
 
 
 
 
 
 
 
3-я 
 
 
 
2
 
 
 
 
 
 
 
 
 
4-я 
 
 
 
 
 
 
 
 
 
 
 
 
5-я 
 
 
 
 
 
 
 
 
 
 
 
 
6-я 
 
 
 
 
 
 
 
 
 
 
 
 
Eb/D
II III IV V VI VII 
1-я 
 
 
 
1
 
 
 
 
 
 
 
 
 
2-я 
 
 
 
 
 
2
 
 
 
 
 
 
 
3-я 
 
 
 
1
 
 
 
 
 
 
 
 
 
4-я 
 
 
 
 
 
 
 
4
 
 
 
 
 
5-я 
 
 
 
 
 
 
 
3
 
 
 
 
 
6-я 
 
 
 
 
 
 
 
 
 
 
 
 
Cm
I II III IV V VI 
1-я 
 
 
 
 
 
4
 
 
 
 
 
 
 
2-я 
 
1
 
 
 
 
 
 
 
 
 
 
 
3-я 
 
 
 
 
 
 
 
 
 
 
 
 
4-я 
 
1
 
 
 
 
 
 
 
 
 
 
 
5-я 
 
 
 
 
 
3
 
 
 
 
 
 
 
6-я 
 
 
 
 
 
 
 
 
 
 
 
 
G
I II III IV V VI 
1-я 
 
 
 
 
 
3
 
 
 
 
 
 
 
2-я 
 
 
 
 
 
 
 
 
 
 
 
 
3-я 
 
 
 
 
 
 
 
 
 
 
 
 
4-я 
 
 
 
 
 
 
 
 
 
 
 
 
5-я 
 
 
 
1
 
 
 
 
 
 
 
 
 
6-я 
 
 
 
 
 
2
 
 
 
 
 
 
 

Ещё песни с аккордами исполнителя/группы «Deep Purple»