Beastie BoysThe Maestro
Добавлено: — , Просмотров: 1043 (+0)



The Maestro

------------------------------------------------------------------------------
-------------------------------------------------------------------------------
-------------------------------------------------------------------------------
---------------------------3---------------------------------------------------
-----------3--5--5-----3------5------------------------repeat------------------
--------3-----------3----------------------------------------------------------

-------------------------------------------------------------------------------
-------------------------------------------------------------------------------
-------------------------------------------------------------------------------
-------------------------------------------------------------------------------
-------------------------------------------------------------------------------
----3--3--x--x--3--x-x-x--4----------------------------------------------------
x=hitting string while mutted to get a percussive effect.

Ещё песни с аккордами исполнителя/группы «Beastie Boys»